Chord Cokelat Bendera [full tab]

Oleh: Cokelat
Int: 

A D
|----------------------------------------|-------- 
|----------------------------------------|       |
|---666--------------------6666----777---|       |
|---777---6h7--diulang-3X--7777----777---|       |------ diulang ulang
|---777--------------------7777----555---|       |
|---555--------------------5555----xxx---|--------        

Gitar 1
|--5------------5~--5------------------5~----|
|----7--5---5--7---------7--5-----5--77------|
|---------6--------------------6-------------| diulang-ulang
|--------------------------------------------|
|--------------------------------------------|
|--------------------------------------------| 


A                  Bm
Biar saja ku tak sehebat matahari 
D                A             E             G# A
Tapi sílalu ku coba slalu tuk menghangatkanmu

(Tambahkan fill)

A                   Bm
Biar saja ku tak setegar batu karang 
D             A             E
Tapi sílalu ku coba tuk melundungimu

Int:

Gitar 
|--5------------5~--5------------------5~----|
|----7--5---5--7---------7--5-----5--77------|
|---------6--------------------6-------------|----ŗ diulang-ulang
|--------------------------------------------|
|--------------------------------------------|
|--------------------------------------------| 


A                     Bm 
Biar saja ku tak seharum bunga mawar
D              A                   E   G# A
Tapi sílalu ku coba tuk mengharumkanmu
A                     Bm
Biar saja ku tak seelok langit sore
D               A                  E
Tapi sílalu ku coba tuk mengingatkamu

Brigde:

Kuperta...hankan kau demi kehormatan bangsa
|-------------------------| 
|-------------------------| 
|-------------------------|
|-----------------9---7---| 
|---4----6-----7----------| 
|---2----4-----5----------| 
| |

Kuperta...hankan kau demi tumpah darah, símua pahlawan-pahlawanku....

|-------------------------------|
|-------------------------------|
|-------------------------------|--ŗgitar 1 
|-----------------7--9-999999---|
|--4----7----7----5--7-777777---|
|--2----4----5----X-------------| 


Reff:

A           E          F#        E
Merah-putih teruslah kau berkibar
D                  C#m       Bm            E 
Di ujung tiang tertinggi, di Indonesiaku ini

A          E           F#      E
Merah-putih teruslah kau berkibar
D                   C#m     Bm            E 
Di ujung tiang tertinggi, di Indonesiaku ini


F#            G#               A
Merah-putih teruslah kau berkibar
D         E            D
Ku akan slalu menjagamu.....

Solo:

|-----------------------------------------------------|
|-----------------------------------------------------|
|----9-9-9-7-7-7-6-6-6-4-4-4-2-2-2-2----------(4x)----|
|----9-9-9-7-7-7-6-6-6-4-4-4-2-2-2-2----------(4x)----|
|-----------------------------------------------------|
|-----------------------------------------------------|

A D
|----------------------------------------|
|----------------------------------------|
|---666--------------------6666----777---|
|---777-ó-6h7ó-diulang-3X--7777----777---|
|---777--------------------7777----555---|
|---555--------------------5555----xxx---| 


Verse: (fill)

A B 
Biar saja ku tak seharum bunga mawar
D A E 
Tapi sílalu ku coba tuk mengharumkanmu
A B 
Biar saja ku tak seelok langit sore
D A E 
Tapi sílalu ku coba tuk mengingatkamu

Chours:

Kuperta...hankan kau demi kehormatan bangsa

|-------------------------| 
|-------------------------| 
|-------------------------|--ŗgitar 1 
|-----------------9---7---| 
|---4----7-----7----------| 
|---2----4-----5----------| 
| |

Kuperta...hankan kau demi tumpah darah, símua pahlawan-pahlawanku....

|-------------------------------|
|-------------------------------|
|-------------------------------| 
|----------------7---9-99999----|
|--4----7----7---5---7-77777----|
|--2----4----5------------------| 

Reff

A5 E  F# E 
Merah-putih teruslah kau berkibar
D C# Bm E 
Di ujung tiang tertinggi, di Indonesiku ini
A5 E F# E
Merah-putih teruslah kau berkibar
D C# Bm E 
Di ujung tiang tertinggi, di Indonesiku ini

F# G# A
Merah-putih teruslah kau berkibar
D E F#` G#` 
Ku akan slalu menjagamu.........
D E D 
Ho........oooo...... oooooooo

Fill: (mutt)distortion


Duration Legend
---------------
W - whole
H - half
Q - quarter
E - 8th
S - 16th
T - 32nd
X - 64th
. - note dotted
|-n-|  - n-tuplets


Tablature Legend
----------------
L - tied note
x - dead note
g - grace note
(n) - ghost note
> - accentuded note
NH - natural harmonic
AH - artificial harmonic
TH - tapped harmonic
SH - semi harmonic
PH - pitch harmonic
h - hammer on
p - pull off
b - bend
br - bendRelease
pb - preBend
pbr - preBendRelease
brb - bendReleaseBend
\n/ - tremolo bar dip
\n - tremolo bar dive
-/n - tremolo bar Release up
/n\ - tremolo bar inverted dip
/n - tremolo bar return
-\n - tremolo bar Release down
S - shift slide
s - legato slide
/ -  slide into from below or out of upwards
\ -  slide into from above or out of downwards
~ - vibrato
W - wide vibrato
tr - trill
TP - tremolo picking
T - tapping
S - slap
P - pop
< - fade in
^ - brush up
v - brush down

Gimana pendapatmu dengan Chord Bendera [full tab] yang dinyanyikan oleh Cokelat? Silahkan Beri Komentar

Flag Counter